ISO-10303-21;
HEADER;
/* Generated by software containing ST-Developer
 * from STEP Tools, Inc. (www.steptools.com) 
 */

FILE_DESCRIPTION(
/* description */ (''),
/* implementation_level */ '2;1');

FILE_NAME(
/* name */ 
'/Users/emilyharmon/Downloads/eeh86_MAE3780_Tuesday_421_DoorLockFittin
g v3.step',
/* time_stamp */ '2021-12-03T16:43:34-05:00',
/* author */ (''),
/* organization */ (''),
/* preprocessor_version */ 'ST-DEVELOPER v18.1',
/* originating_system */ 'Autodesk Translation Framework v10.10.0.1391',

/* authorisation */ '');

FILE_SCHEMA (('AUTOMOTIVE_DESIGN { 1 0 10303 214 3 1 1 }'));
ENDSEC;

DATA;
#10=MECHANICAL_DESIGN_GEOMETRIC_PRESENTATION_REPRESENTATION('',(#13),#432);
#11=SHAPE_REPRESENTATION_RELATIONSHIP('SRR','None',#442,#12);
#12=ADVANCED_BREP_SHAPE_REPRESENTATION('',(#14),#431);
#13=STYLED_ITEM('',(#451),#14);
#14=MANIFOLD_SOLID_BREP('Body1',#252);
#15=FACE_BOUND('',#59,.T.);
#16=FACE_BOUND('',#60,.T.);
#17=FACE_BOUND('',#62,.T.);
#18=FACE_BOUND('',#63,.T.);
#19=CIRCLE('',#268,0.279);
#20=CIRCLE('',#269,0.279);
#21=CIRCLE('',#272,0.123);
#22=CIRCLE('',#273,0.123);
#23=CIRCLE('',#275,0.125);
#24=CIRCLE('',#276,0.125);
#25=CIRCLE('',#280,0.489294513950922);
#26=CIRCLE('',#281,0.489294513950922);
#27=CIRCLE('',#285,0.300000016052603);
#28=CIRCLE('',#286,0.300000016052603);
#29=CYLINDRICAL_SURFACE('',#267,0.279);
#30=CYLINDRICAL_SURFACE('',#271,0.123);
#31=CYLINDRICAL_SURFACE('',#274,0.125);
#32=CYLINDRICAL_SURFACE('',#279,0.489294513950922);
#33=CYLINDRICAL_SURFACE('',#284,0.300000016052603);
#34=FACE_OUTER_BOUND('',#47,.T.);
#35=FACE_OUTER_BOUND('',#48,.T.);
#36=FACE_OUTER_BOUND('',#49,.T.);
#37=FACE_OUTER_BOUND('',#50,.T.);
#38=FACE_OUTER_BOUND('',#51,.T.);
#39=FACE_OUTER_BOUND('',#52,.T.);
#40=FACE_OUTER_BOUND('',#53,.T.);
#41=FACE_OUTER_BOUND('',#54,.T.);
#42=FACE_OUTER_BOUND('',#55,.T.);
#43=FACE_OUTER_BOUND('',#56,.T.);
#44=FACE_OUTER_BOUND('',#57,.T.);
#45=FACE_OUTER_BOUND('',#58,.T.);
#46=FACE_OUTER_BOUND('',#61,.T.);
#47=EDGE_LOOP('',(#165,#166,#167,#168));
#48=EDGE_LOOP('',(#169,#170,#171,#172));
#49=EDGE_LOOP('',(#173,#174,#175,#176));
#50=EDGE_LOOP('',(#177,#178,#179,#180));
#51=EDGE_LOOP('',(#181,#182,#183,#184));
#52=EDGE_LOOP('',(#185,#186,#187,#188));
#53=EDGE_LOOP('',(#189,#190,#191,#192));
#54=EDGE_LOOP('',(#193,#194,#195,#196));
#55=EDGE_LOOP('',(#197,#198,#199,#200));
#56=EDGE_LOOP('',(#201,#202,#203,#204));
#57=EDGE_LOOP('',(#205,#206,#207,#208));
#58=EDGE_LOOP('',(#209,#210,#211,#212,#213,#214));
#59=EDGE_LOOP('',(#215));
#60=EDGE_LOOP('',(#216,#217,#218,#219));
#61=EDGE_LOOP('',(#220,#221,#222,#223,#224,#225));
#62=EDGE_LOOP('',(#226));
#63=EDGE_LOOP('',(#227,#228,#229,#230));
#64=LINE('',#364,#87);
#65=LINE('',#366,#88);
#66=LINE('',#368,#89);
#67=LINE('',#369,#90);
#68=LINE('',#375,#91);
#69=LINE('',#378,#92);
#70=LINE('',#380,#93);
#71=LINE('',#381,#94);
#72=LINE('',#389,#95);
#73=LINE('',#394,#96);
#74=LINE('',#396,#97);
#75=LINE('',#398,#98);
#76=LINE('',#399,#99);
#77=LINE('',#402,#100);
#78=LINE('',#404,#101);
#79=LINE('',#405,#102);
#80=LINE('',#411,#103);
#81=LINE('',#414,#104);
#82=LINE('',#416,#105);
#83=LINE('',#417,#106);
#84=LINE('',#420,#107);
#85=LINE('',#422,#108);
#86=LINE('',#423,#109);
#87=VECTOR('',#293,0.393700787401575);
#88=VECTOR('',#294,0.393700787401575);
#89=VECTOR('',#295,0.393700787401575);
#90=VECTOR('',#296,0.393700787401575);
#91=VECTOR('',#303,0.393700787401575);
#92=VECTOR('',#306,0.393700787401575);
#93=VECTOR('',#307,0.393700787401575);
#94=VECTOR('',#308,0.393700787401575);
#95=VECTOR('',#319,0.125);
#96=VECTOR('',#324,0.393700787401575);
#97=VECTOR('',#325,0.393700787401575);
#98=VECTOR('',#326,0.393700787401575);
#99=VECTOR('',#327,0.393700787401575);
#100=VECTOR('',#330,0.393700787401575);
#101=VECTOR('',#331,0.393700787401575);
#102=VECTOR('',#332,0.393700787401575);
#103=VECTOR('',#339,0.393700787401575);
#104=VECTOR('',#342,0.393700787401575);
#105=VECTOR('',#343,0.393700787401575);
#106=VECTOR('',#344,0.393700787401575);
#107=VECTOR('',#347,0.393700787401575);
#108=VECTOR('',#348,0.393700787401575);
#109=VECTOR('',#349,0.393700787401575);
#110=VERTEX_POINT('',#362);
#111=VERTEX_POINT('',#363);
#112=VERTEX_POINT('',#365);
#113=VERTEX_POINT('',#367);
#114=VERTEX_POINT('',#371);
#115=VERTEX_POINT('',#373);
#116=VERTEX_POINT('',#377);
#117=VERTEX_POINT('',#379);
#118=VERTEX_POINT('',#386);
#119=VERTEX_POINT('',#388);
#120=VERTEX_POINT('',#392);
#121=VERTEX_POINT('',#393);
#122=VERTEX_POINT('',#395);
#123=VERTEX_POINT('',#397);
#124=VERTEX_POINT('',#401);
#125=VERTEX_POINT('',#403);
#126=VERTEX_POINT('',#407);
#127=VERTEX_POINT('',#409);
#128=VERTEX_POINT('',#413);
#129=VERTEX_POINT('',#415);
#130=VERTEX_POINT('',#419);
#131=VERTEX_POINT('',#421);
#132=EDGE_CURVE('',#110,#111,#64,.T.);
#133=EDGE_CURVE('',#111,#112,#65,.T.);
#134=EDGE_CURVE('',#113,#112,#66,.T.);
#135=EDGE_CURVE('',#110,#113,#67,.T.);
#136=EDGE_CURVE('',#114,#110,#19,.T.);
#137=EDGE_CURVE('',#115,#113,#20,.T.);
#138=EDGE_CURVE('',#114,#115,#68,.T.);
#139=EDGE_CURVE('',#116,#114,#69,.T.);
#140=EDGE_CURVE('',#117,#115,#70,.T.);
#141=EDGE_CURVE('',#116,#117,#71,.T.);
#142=EDGE_CURVE('',#111,#116,#21,.T.);
#143=EDGE_CURVE('',#112,#117,#22,.T.);
#144=EDGE_CURVE('',#118,#118,#23,.T.);
#145=EDGE_CURVE('',#118,#119,#72,.T.);
#146=EDGE_CURVE('',#119,#119,#24,.T.);
#147=EDGE_CURVE('',#120,#121,#73,.T.);
#148=EDGE_CURVE('',#121,#122,#74,.T.);
#149=EDGE_CURVE('',#123,#122,#75,.T.);
#150=EDGE_CURVE('',#120,#123,#76,.T.);
#151=EDGE_CURVE('',#120,#124,#77,.T.);
#152=EDGE_CURVE('',#125,#123,#78,.T.);
#153=EDGE_CURVE('',#124,#125,#79,.T.);
#154=EDGE_CURVE('',#126,#124,#25,.T.);
#155=EDGE_CURVE('',#127,#125,#26,.T.);
#156=EDGE_CURVE('',#126,#127,#80,.T.);
#157=EDGE_CURVE('',#128,#126,#81,.T.);
#158=EDGE_CURVE('',#129,#127,#82,.T.);
#159=EDGE_CURVE('',#128,#129,#83,.T.);
#160=EDGE_CURVE('',#128,#130,#84,.T.);
#161=EDGE_CURVE('',#131,#129,#85,.T.);
#162=EDGE_CURVE('',#130,#131,#86,.T.);
#163=EDGE_CURVE('',#121,#130,#27,.T.);
#164=EDGE_CURVE('',#122,#131,#28,.T.);
#165=ORIENTED_EDGE('',*,*,#132,.T.);
#166=ORIENTED_EDGE('',*,*,#133,.T.);
#167=ORIENTED_EDGE('',*,*,#134,.F.);
#168=ORIENTED_EDGE('',*,*,#135,.F.);
#169=ORIENTED_EDGE('',*,*,#136,.T.);
#170=ORIENTED_EDGE('',*,*,#135,.T.);
#171=ORIENTED_EDGE('',*,*,#137,.F.);
#172=ORIENTED_EDGE('',*,*,#138,.F.);
#173=ORIENTED_EDGE('',*,*,#139,.T.);
#174=ORIENTED_EDGE('',*,*,#138,.T.);
#175=ORIENTED_EDGE('',*,*,#140,.F.);
#176=ORIENTED_EDGE('',*,*,#141,.F.);
#177=ORIENTED_EDGE('',*,*,#142,.T.);
#178=ORIENTED_EDGE('',*,*,#141,.T.);
#179=ORIENTED_EDGE('',*,*,#143,.F.);
#180=ORIENTED_EDGE('',*,*,#133,.F.);
#181=ORIENTED_EDGE('',*,*,#144,.F.);
#182=ORIENTED_EDGE('',*,*,#145,.T.);
#183=ORIENTED_EDGE('',*,*,#146,.T.);
#184=ORIENTED_EDGE('',*,*,#145,.F.);
#185=ORIENTED_EDGE('',*,*,#147,.T.);
#186=ORIENTED_EDGE('',*,*,#148,.T.);
#187=ORIENTED_EDGE('',*,*,#149,.F.);
#188=ORIENTED_EDGE('',*,*,#150,.F.);
#189=ORIENTED_EDGE('',*,*,#151,.F.);
#190=ORIENTED_EDGE('',*,*,#150,.T.);
#191=ORIENTED_EDGE('',*,*,#152,.F.);
#192=ORIENTED_EDGE('',*,*,#153,.F.);
#193=ORIENTED_EDGE('',*,*,#154,.T.);
#194=ORIENTED_EDGE('',*,*,#153,.T.);
#195=ORIENTED_EDGE('',*,*,#155,.F.);
#196=ORIENTED_EDGE('',*,*,#156,.F.);
#197=ORIENTED_EDGE('',*,*,#157,.T.);
#198=ORIENTED_EDGE('',*,*,#156,.T.);
#199=ORIENTED_EDGE('',*,*,#158,.F.);
#200=ORIENTED_EDGE('',*,*,#159,.F.);
#201=ORIENTED_EDGE('',*,*,#160,.F.);
#202=ORIENTED_EDGE('',*,*,#159,.T.);
#203=ORIENTED_EDGE('',*,*,#161,.F.);
#204=ORIENTED_EDGE('',*,*,#162,.F.);
#205=ORIENTED_EDGE('',*,*,#163,.T.);
#206=ORIENTED_EDGE('',*,*,#162,.T.);
#207=ORIENTED_EDGE('',*,*,#164,.F.);
#208=ORIENTED_EDGE('',*,*,#148,.F.);
#209=ORIENTED_EDGE('',*,*,#164,.T.);
#210=ORIENTED_EDGE('',*,*,#161,.T.);
#211=ORIENTED_EDGE('',*,*,#158,.T.);
#212=ORIENTED_EDGE('',*,*,#155,.T.);
#213=ORIENTED_EDGE('',*,*,#152,.T.);
#214=ORIENTED_EDGE('',*,*,#149,.T.);
#215=ORIENTED_EDGE('',*,*,#144,.T.);
#216=ORIENTED_EDGE('',*,*,#143,.T.);
#217=ORIENTED_EDGE('',*,*,#140,.T.);
#218=ORIENTED_EDGE('',*,*,#137,.T.);
#219=ORIENTED_EDGE('',*,*,#134,.T.);
#220=ORIENTED_EDGE('',*,*,#163,.F.);
#221=ORIENTED_EDGE('',*,*,#147,.F.);
#222=ORIENTED_EDGE('',*,*,#151,.T.);
#223=ORIENTED_EDGE('',*,*,#154,.F.);
#224=ORIENTED_EDGE('',*,*,#157,.F.);
#225=ORIENTED_EDGE('',*,*,#160,.T.);
#226=ORIENTED_EDGE('',*,*,#146,.F.);
#227=ORIENTED_EDGE('',*,*,#142,.F.);
#228=ORIENTED_EDGE('',*,*,#132,.F.);
#229=ORIENTED_EDGE('',*,*,#136,.F.);
#230=ORIENTED_EDGE('',*,*,#139,.F.);
#231=PLANE('',#266);
#232=PLANE('',#270);
#233=PLANE('',#277);
#234=PLANE('',#278);
#235=PLANE('',#282);
#236=PLANE('',#283);
#237=PLANE('',#287);
#238=PLANE('',#288);
#239=ADVANCED_FACE('',(#34),#231,.T.);
#240=ADVANCED_FACE('',(#35),#29,.F.);
#241=ADVANCED_FACE('',(#36),#232,.T.);
#242=ADVANCED_FACE('',(#37),#30,.F.);
#243=ADVANCED_FACE('',(#38),#31,.F.);
#244=ADVANCED_FACE('',(#39),#233,.T.);
#245=ADVANCED_FACE('',(#40),#234,.T.);
#246=ADVANCED_FACE('',(#41),#32,.T.);
#247=ADVANCED_FACE('',(#42),#235,.T.);
#248=ADVANCED_FACE('',(#43),#236,.T.);
#249=ADVANCED_FACE('',(#44),#33,.T.);
#250=ADVANCED_FACE('',(#45,#15,#16),#237,.T.);
#251=ADVANCED_FACE('',(#46,#17,#18),#238,.F.);
#252=CLOSED_SHELL('',(#239,#240,#241,#242,#243,#244,#245,#246,#247,#248,
#249,#250,#251));
#253=DERIVED_UNIT_ELEMENT(#255,1.);
#254=DERIVED_UNIT_ELEMENT(#436,-3.);
#255=(
MASS_UNIT()
NAMED_UNIT(*)
SI_UNIT(.KILO.,.GRAM.)
);
#256=DERIVED_UNIT((#253,#254));
#257=MEASURE_REPRESENTATION_ITEM('density measure',
POSITIVE_RATIO_MEASURE(7850.),#256);
#258=PROPERTY_DEFINITION_REPRESENTATION(#263,#260);
#259=PROPERTY_DEFINITION_REPRESENTATION(#264,#261);
#260=REPRESENTATION('material name',(#262),#431);
#261=REPRESENTATION('density',(#257),#431);
#262=DESCRIPTIVE_REPRESENTATION_ITEM('Steel','Steel');
#263=PROPERTY_DEFINITION('material property','material name',#444);
#264=PROPERTY_DEFINITION('material property','density of part',#444);
#265=AXIS2_PLACEMENT_3D('placement',#360,#289,#290);
#266=AXIS2_PLACEMENT_3D('',#361,#291,#292);
#267=AXIS2_PLACEMENT_3D('',#370,#297,#298);
#268=AXIS2_PLACEMENT_3D('',#372,#299,#300);
#269=AXIS2_PLACEMENT_3D('',#374,#301,#302);
#270=AXIS2_PLACEMENT_3D('',#376,#304,#305);
#271=AXIS2_PLACEMENT_3D('',#382,#309,#310);
#272=AXIS2_PLACEMENT_3D('',#383,#311,#312);
#273=AXIS2_PLACEMENT_3D('',#384,#313,#314);
#274=AXIS2_PLACEMENT_3D('',#385,#315,#316);
#275=AXIS2_PLACEMENT_3D('',#387,#317,#318);
#276=AXIS2_PLACEMENT_3D('',#390,#320,#321);
#277=AXIS2_PLACEMENT_3D('',#391,#322,#323);
#278=AXIS2_PLACEMENT_3D('',#400,#328,#329);
#279=AXIS2_PLACEMENT_3D('',#406,#333,#334);
#280=AXIS2_PLACEMENT_3D('',#408,#335,#336);
#281=AXIS2_PLACEMENT_3D('',#410,#337,#338);
#282=AXIS2_PLACEMENT_3D('',#412,#340,#341);
#283=AXIS2_PLACEMENT_3D('',#418,#345,#346);
#284=AXIS2_PLACEMENT_3D('',#424,#350,#351);
#285=AXIS2_PLACEMENT_3D('',#425,#352,#353);
#286=AXIS2_PLACEMENT_3D('',#426,#354,#355);
#287=AXIS2_PLACEMENT_3D('',#427,#356,#357);
#288=AXIS2_PLACEMENT_3D('',#428,#358,#359);
#289=DIRECTION('axis',(0.,0.,1.));
#290=DIRECTION('refdir',(1.,0.,0.));
#291=DIRECTION('center_axis',(0.99194762623357,-0.126648753683505,0.));
#292=DIRECTION('ref_axis',(0.126648753683505,0.99194762623357,0.));
#293=DIRECTION('',(0.126648753683505,0.99194762623357,0.));
#294=DIRECTION('',(0.,0.,1.));
#295=DIRECTION('',(0.126648753683505,0.99194762623357,0.));
#296=DIRECTION('',(0.,0.,1.));
#297=DIRECTION('center_axis',(0.,0.,1.));
#298=DIRECTION('ref_axis',(-0.0273645042692943,-0.9996255218361,0.));
#299=DIRECTION('center_axis',(0.,0.,-1.));
#300=DIRECTION('ref_axis',(1.,0.,0.));
#301=DIRECTION('center_axis',(0.,0.,-1.));
#302=DIRECTION('ref_axis',(1.,0.,0.));
#303=DIRECTION('',(0.,0.,1.));
#304=DIRECTION('center_axis',(-0.995041843868692,-0.099457171437732,0.));
#305=DIRECTION('ref_axis',(0.099457171437732,-0.995041843868692,0.));
#306=DIRECTION('',(0.099457171437732,-0.995041843868692,0.));
#307=DIRECTION('',(0.099457171437732,-0.995041843868692,0.));
#308=DIRECTION('',(0.,0.,1.));
#309=DIRECTION('center_axis',(0.,0.,1.));
#310=DIRECTION('ref_axis',(1.,0.,0.));
#311=DIRECTION('center_axis',(0.,0.,-1.));
#312=DIRECTION('ref_axis',(1.,0.,0.));
#313=DIRECTION('center_axis',(0.,0.,-1.));
#314=DIRECTION('ref_axis',(1.,0.,0.));
#315=DIRECTION('center_axis',(0.,0.,1.));
#316=DIRECTION('ref_axis',(1.,0.,0.));
#317=DIRECTION('center_axis',(0.,0.,-1.));
#318=DIRECTION('ref_axis',(1.,0.,0.));
#319=DIRECTION('',(0.,0.,-1.));
#320=DIRECTION('center_axis',(0.,0.,-1.));
#321=DIRECTION('ref_axis',(1.,0.,0.));
#322=DIRECTION('center_axis',(1.,-1.84236802562764E-14,0.));
#323=DIRECTION('ref_axis',(1.84236802562764E-14,1.,0.));
#324=DIRECTION('',(1.84236802562764E-14,1.,0.));
#325=DIRECTION('',(0.,0.,1.));
#326=DIRECTION('',(1.84236802562764E-14,1.,0.));
#327=DIRECTION('',(0.,0.,1.));
#328=DIRECTION('center_axis',(0.992357700321257,0.123394467514176,0.));
#329=DIRECTION('ref_axis',(-0.123394467514176,0.992357700321257,0.));
#330=DIRECTION('',(0.123394467514176,-0.992357700321257,0.));
#331=DIRECTION('',(-0.123394467514176,0.992357700321257,0.));
#332=DIRECTION('',(0.,0.,1.));
#333=DIRECTION('center_axis',(0.,0.,1.));
#334=DIRECTION('ref_axis',(1.,0.,0.));
#335=DIRECTION('center_axis',(0.,0.,1.));
#336=DIRECTION('ref_axis',(1.,0.,0.));
#337=DIRECTION('center_axis',(0.,0.,1.));
#338=DIRECTION('ref_axis',(1.,0.,0.));
#339=DIRECTION('',(0.,0.,1.));
#340=DIRECTION('center_axis',(-0.988649104478214,0.150242963943157,0.));
#341=DIRECTION('ref_axis',(-0.150242963943157,-0.988649104478215,0.));
#342=DIRECTION('',(-0.150242963943157,-0.988649104478214,0.));
#343=DIRECTION('',(-0.150242963943157,-0.988649104478214,0.));
#344=DIRECTION('',(0.,0.,1.));
#345=DIRECTION('center_axis',(-1.,-1.51914556499122E-14,0.));
#346=DIRECTION('ref_axis',(1.51914556499122E-14,-1.,0.));
#347=DIRECTION('',(-1.51914556499122E-14,1.,0.));
#348=DIRECTION('',(1.51914556499122E-14,-1.,0.));
#349=DIRECTION('',(0.,0.,1.));
#350=DIRECTION('center_axis',(0.,0.,1.));
#351=DIRECTION('ref_axis',(1.,0.,0.));
#352=DIRECTION('center_axis',(0.,0.,1.));
#353=DIRECTION('ref_axis',(1.,0.,0.));
#354=DIRECTION('center_axis',(0.,0.,1.));
#355=DIRECTION('ref_axis',(1.,0.,0.));
#356=DIRECTION('center_axis',(0.,0.,1.));
#357=DIRECTION('ref_axis',(1.,0.,0.));
#358=DIRECTION('center_axis',(0.,0.,1.));
#359=DIRECTION('ref_axis',(1.,0.,0.));
#360=CARTESIAN_POINT('',(0.,0.,0.));
#361=CARTESIAN_POINT('Origin',(-0.270049732000253,0.0701009432646309,0.));
#362=CARTESIAN_POINT('',(-0.270049732000253,0.0701009432646309,0.));
#363=CARTESIAN_POINT('',(-0.10400001117,1.37064770447424,0.));
#364=CARTESIAN_POINT('',(-0.10400001117,1.37064770447424,0.));
#365=CARTESIAN_POINT('',(-0.10400001117,1.37064770447424,0.566));
#366=CARTESIAN_POINT('',(-0.10400001117,1.37064770447424,0.));
#367=CARTESIAN_POINT('',(-0.270049732000253,0.0701009432646309,0.566));
#368=CARTESIAN_POINT('',(-0.10400001117,1.37064770447424,0.566));
#369=CARTESIAN_POINT('',(-0.270049732000253,0.0701009432646309,0.));
#370=CARTESIAN_POINT('Origin',(0.,0.,0.));
#371=CARTESIAN_POINT('',(0.273480415245678,0.0552219383673956,0.));
#372=CARTESIAN_POINT('Origin',(0.,0.,0.));
#373=CARTESIAN_POINT('',(0.273480415245678,0.0552219383673955,0.566));
#374=CARTESIAN_POINT('Origin',(0.,0.,0.566));
#375=CARTESIAN_POINT('',(0.273480415245678,0.0552219383673956,0.));
#376=CARTESIAN_POINT('Origin',(0.14199998883,1.37064770447424,0.));
#377=CARTESIAN_POINT('',(0.14199998883,1.37064770447424,0.));
#378=CARTESIAN_POINT('',(0.14199998883,1.37064770447424,0.));
#379=CARTESIAN_POINT('',(0.14199998883,1.37064770447424,0.566));
#380=CARTESIAN_POINT('',(0.14199998883,1.37064770447424,0.566));
#381=CARTESIAN_POINT('',(0.14199998883,1.37064770447424,0.));
#382=CARTESIAN_POINT('Origin',(0.0189999888299998,1.37064770447424,0.));
#383=CARTESIAN_POINT('Origin',(0.0189999888299998,1.37064770447424,0.));
#384=CARTESIAN_POINT('Origin',(0.0189999888299998,1.37064770447424,0.566));
#385=CARTESIAN_POINT('Origin',(0.0189999888299998,2.18203131585874,0.));
#386=CARTESIAN_POINT('',(-0.10600001117,2.18203131585874,0.566));
#387=CARTESIAN_POINT('Origin',(0.0189999888299998,2.18203131585874,0.566));
#388=CARTESIAN_POINT('',(-0.10600001117,2.18203131585874,0.));
#389=CARTESIAN_POINT('',(-0.10600001117,2.18203131585874,0.));
#390=CARTESIAN_POINT('Origin',(0.0189999888299998,2.18203131585874,0.));
#391=CARTESIAN_POINT('Origin',(0.31899998883,1.37064770447423,0.));
#392=CARTESIAN_POINT('',(0.31899998883,1.37064770447423,0.));
#393=CARTESIAN_POINT('',(0.31899999953174,2.18197465442852,0.));
#394=CARTESIAN_POINT('',(0.31899998883,1.37064770447423,0.));
#395=CARTESIAN_POINT('',(0.31899999953174,2.18197465442852,0.566));
#396=CARTESIAN_POINT('',(0.31899999953174,2.18197465442852,0.));
#397=CARTESIAN_POINT('',(0.31899998883,1.37064770447423,0.566));
#398=CARTESIAN_POINT('',(0.31899998883,1.37064770447423,0.566));
#399=CARTESIAN_POINT('',(0.31899998883,1.37064770447423,0.));
#400=CARTESIAN_POINT('Origin',(0.489293225848833,0.00112272922476923,0.));
#401=CARTESIAN_POINT('',(0.489293225848833,0.00112272922476923,0.));
#402=CARTESIAN_POINT('',(0.31899998883,1.37064770447423,0.));
#403=CARTESIAN_POINT('',(0.489293225848833,0.00112272922476923,0.566));
#404=CARTESIAN_POINT('',(0.31899998883,1.37064770447423,0.566));
#405=CARTESIAN_POINT('',(0.489293225848833,0.00112272922476923,0.));
#406=CARTESIAN_POINT('Origin',(0.,0.,0.));
#407=CARTESIAN_POINT('',(-0.489294513950922,1.74838271594513E-16,0.));
#408=CARTESIAN_POINT('Origin',(0.,0.,0.));
#409=CARTESIAN_POINT('',(-0.489294513950922,0.,0.566));
#410=CARTESIAN_POINT('Origin',(0.,0.,0.566));
#411=CARTESIAN_POINT('',(-0.489294513950922,1.74838271594513E-16,0.));
#412=CARTESIAN_POINT('Origin',(-0.28100001117,1.37064770447424,0.));
#413=CARTESIAN_POINT('',(-0.28100001117,1.37064770447424,0.));
#414=CARTESIAN_POINT('',(-0.28100001117,1.37064770447424,0.));
#415=CARTESIAN_POINT('',(-0.28100001117,1.37064770447424,0.566));
#416=CARTESIAN_POINT('',(-0.28100001117,1.37064770447424,0.566));
#417=CARTESIAN_POINT('',(-0.28100001117,1.37064770447424,0.));
#418=CARTESIAN_POINT('Origin',(-0.281000011170012,2.18203131585874,0.));
#419=CARTESIAN_POINT('',(-0.281000011170012,2.18203131585874,0.));
#420=CARTESIAN_POINT('',(-0.28100001117,1.37064770447424,0.));
#421=CARTESIAN_POINT('',(-0.281000011170012,2.18203131585874,0.566));
#422=CARTESIAN_POINT('',(-0.28100001117,1.37064770447424,0.566));
#423=CARTESIAN_POINT('',(-0.281000011170012,2.18203131585874,0.));
#424=CARTESIAN_POINT('Origin',(0.0189999888299998,2.18203131585874,0.));
#425=CARTESIAN_POINT('Origin',(0.0189999888299998,2.18203131585874,0.));
#426=CARTESIAN_POINT('Origin',(0.0189999888299998,2.18203131585874,0.566));
#427=CARTESIAN_POINT('Origin',(0.,0.99636840898021,0.566));
#428=CARTESIAN_POINT('Origin',(0.,0.99636840898021,0.));
#429=UNCERTAINTY_MEASURE_WITH_UNIT(LENGTH_MEASURE(0.000393700787401575),
#434,'DISTANCE_ACCURACY_VALUE',
'Maximum model space distance between geometric entities at asserted c
onnectivities');
#430=UNCERTAINTY_MEASURE_WITH_UNIT(LENGTH_MEASURE(0.000393700787401575),
#434,'DISTANCE_ACCURACY_VALUE',
'Maximum model space distance between geometric entities at asserted c
onnectivities');
#431=(
GEOMETRIC_REPRESENTATION_CONTEXT(3)
GLOBAL_UNCERTAINTY_ASSIGNED_CONTEXT((#429))
GLOBAL_UNIT_ASSIGNED_CONTEXT((#434,#438,#439))
REPRESENTATION_CONTEXT('','3D')
);
#432=(
GEOMETRIC_REPRESENTATION_CONTEXT(3)
GLOBAL_UNCERTAINTY_ASSIGNED_CONTEXT((#430))
GLOBAL_UNIT_ASSIGNED_CONTEXT((#434,#438,#439))
REPRESENTATION_CONTEXT('','3D')
);
#433=DIMENSIONAL_EXPONENTS(1.,0.,0.,0.,0.,0.,0.);
#434=(
CONVERSION_BASED_UNIT('inch',#437)
LENGTH_UNIT()
NAMED_UNIT(#433)
);
#435=(
LENGTH_UNIT()
NAMED_UNIT(*)
SI_UNIT(.MILLI.,.METRE.)
);
#436=(
LENGTH_UNIT()
NAMED_UNIT(*)
SI_UNIT($,.METRE.)
);
#437=LENGTH_MEASURE_WITH_UNIT(LENGTH_MEASURE(25.4),#435);
#438=(
NAMED_UNIT(*)
PLANE_ANGLE_UNIT()
SI_UNIT($,.RADIAN.)
);
#439=(
NAMED_UNIT(*)
SI_UNIT($,.STERADIAN.)
SOLID_ANGLE_UNIT()
);
#440=SHAPE_DEFINITION_REPRESENTATION(#441,#442);
#441=PRODUCT_DEFINITION_SHAPE('',$,#444);
#442=SHAPE_REPRESENTATION('',(#265),#431);
#443=PRODUCT_DEFINITION_CONTEXT('part definition',#448,'design');
#444=PRODUCT_DEFINITION('eeh86_MAE3780_Tuesday_421_DoorLockFitting',
'eeh86_MAE3780_Tuesday_421_DoorLockFitting v3',#445,#443);
#445=PRODUCT_DEFINITION_FORMATION('',$,#450);
#446=PRODUCT_RELATED_PRODUCT_CATEGORY(
'eeh86_MAE3780_Tuesday_421_DoorLockFitting v3',
'eeh86_MAE3780_Tuesday_421_DoorLockFitting v3',(#450));
#447=APPLICATION_PROTOCOL_DEFINITION('international standard',
'automotive_design',2009,#448);
#448=APPLICATION_CONTEXT(
'Core Data for Automotive Mechanical Design Process');
#449=PRODUCT_CONTEXT('part definition',#448,'mechanical');
#450=PRODUCT('eeh86_MAE3780_Tuesday_421_DoorLockFitting',
'eeh86_MAE3780_Tuesday_421_DoorLockFitting v3',$,(#449));
#451=PRESENTATION_STYLE_ASSIGNMENT((#453));
#452=PRESENTATION_STYLE_ASSIGNMENT((#454));
#453=SURFACE_STYLE_USAGE(.BOTH.,#455);
#454=SURFACE_STYLE_USAGE(.BOTH.,#456);
#455=SURFACE_SIDE_STYLE('',(#457));
#456=SURFACE_SIDE_STYLE('',(#458));
#457=SURFACE_STYLE_FILL_AREA(#459);
#458=SURFACE_STYLE_FILL_AREA(#460);
#459=FILL_AREA_STYLE('Steel - Satin',(#461));
#460=FILL_AREA_STYLE('Aluminum - Polished',(#462));
#461=FILL_AREA_STYLE_COLOUR('Steel - Satin',#463);
#462=FILL_AREA_STYLE_COLOUR('Aluminum - Polished',#464);
#463=COLOUR_RGB('Steel - Satin',0.627450980392157,0.627450980392157,0.627450980392157);
#464=COLOUR_RGB('Aluminum - Polished',0.96078431372549,0.96078431372549,
0.964705882352941);
ENDSEC;
END-ISO-10303-21;
